Make your own free website on Tripod.com
Drakkar : "The Voice of the Wind"

 

    Intro (clean guit.)                                                         

E-----------------------------------------------------------------------

B------------3-----------------3-----------------3-----------------3----

G---------0-----0-----------0-----0-----------0-----0-----------0-------

D------2-----------2-----2-----------2-----2-----------2-----2----------

A---0-----------------0-----------------0-----------------0-------------

E-----------------------------------------------------------------------

                                                                        

 

                                                                        

E-----------------------------------------------------------------------

B------------------3-----------------3-----------------3----------------

G---0-----------0-----0-----------0-----0-----------0-----0-------------

D------2-----0-----------0-----0-----------0-----0-----------0-----0----

A---------3-----------------2-----------------1-----------------1-------

E-----------------------------------------------------------------------

                                                                        

 

                  RIFF 1                                                       

E---------------|-------------------------------------------------------

B------3--------|-------------------------------------------------------

G---0-----0-----|-------------------------------------------------------

D------------0--|--6--------6-----------------------6--------6----------

A---------------|--4--4--4--4--4--4-----4--4--4--4--4--4--4--4--4--4----

E---------------|-------------------------------------------------------

                                                                        

 

                                                                        

E-----------------------------------------------------------------------

B-----------------------------------------------------------------------

G-----------------------------------------------------------------------

D------------------6--------6-----------------------6-----2-----4-------

A------4--4--4--4--4--4--4--4--4--4-----4--4--4--4--4-----0-----2-------

E-----------------------------------------------------------------------

                                                                        

 

              RIFF 2   s  s  s  s  s  s  s  s  s  s  s  s  s  s         

E------------ |----------------------------------------------------------

B------------ |----------------------------------------------------------

G------------ |----------------------------------------------------------

D---9-----6-- |-----6----------------------------------------------------

A---7-----4-- |-----4--4--4--4--4--4--4--4--4--4--4--4--4--4--4--9--4----

E------------ |----------------------------------------------------------

                                                                        

 

       

E-----------------------------------------------------------------------

B-----------------------------------------------------------------------

G-----------------------------------------------------------------------

D-----------------------------------6-----------------------------------

A---4--4--4--7--4--4--4--4--4--6h7--4--4--4--4--4--4--4--4--4--4--4-----

E-----------------------------------------------------------------------

                                                                        

 

        

E-----------------------------------------------------------------------

B-----------------------------------------------------------------------

G-----------------------------------------------------------------------

D-----------------------------------------------------------------------

A---4--4--4--4--7--4--4--4--4--6--4--4--4--4--4--6h7--7--7--7--7--7-----

E-----------------------------------------------------5-----------------

                                                                        

 

         

E------------------------------------------------------------------------

B------------------------------------------------------------------------

G------------------------------------------------------------------------

D------------------------------------6---------------9--------------11---

A---7--7--9--9--9--9--9--7--7--7--7--4---7--7--7--7--7--9--9--9--9--9----

E------------------------------------------------------------------------

                                                                        

 

RIFF 3

                                                                        

E--------------------------------------------------------------------------

B-----9--7------------------------------------------9--7-------------------

G--6--------9--8--9---------------------9--8-----6--------9--8--9----------

D--------------------9--7-----7--9--11--------9--------------------9--7----

A--------------------------------------------------------------------------

E--------------------------------------------------------------------------

                                                                        

 

                   Bridge                                                     

E----------------|-------------------------------------------------------

B----------------|-------------------------------------------------------

G----------------|--2----------------------------------------------------

D---7--9--11--9--|--2----------------------------------------------------

A----------------|--0--0--0--0--0--4--0--0--0--7--0--0--0--4--0--0--0----

E----------------|-------------------------------------------------------

                                                                        

 

                                                                        

E----------------------------------------------------------------|

B----------------------------------------------------------------|

G---4-----2--------------------------------------------------4---|

D---4-----2--------------------------------------------------4---|

A---2-----0--0--0--0--0--4--0--0--0--7--0--0--0--4--0--0--0--2---|

E----------------------------------------------------------------|

                                                                        

 

Chorus:

                                                                        

E--------------------------------------------------|

B--------------------------------------------------|

G------------4-----6-----------------------4-------|

D------2-----4-----6-----6-----7-----2-----4-------|

A------2-----2-----4-----6-----7-----2-----2-------|

E------0-----------------4-----5-----0-------------|

                                                                        

 

 

  RIFF 4                                                                        

E-----------------------------------------------------------------------

B-----------------------------------------------------------------------

G-----------------------------------------------------------------------

D------------6-----------7-----------6-----------7--------------6-------

A---4--4--4-----4--4--4-----4--4--4-----4--4--4--------4--4--4-----4----

E-----------------------------------------------------------------------

                                                 A.H.                  

 

                                                                        

E-----------------------------------------------------------------------

B-----------------------------------------------------------------------

G-----------------------------------------------------------------------

D---------7-----------6-----------7--------------4-----------5----------

A---4--4-----4--4--4-----4--4--4--------2--2--2-----2--2--2-----2--2----

E-----------------------------------------------------------------------

                                  A.H.                                 

 

                                                                        

E-----------------------------------------------------------------------

B-----------------------------------------------------------------------

G-----------------------------------------------------------------------

D------4-----------5--------------4-----------5-----------4-------------

A---2-----2--2--2--------2--2--2-----2--2--2-----2--2--2-----2--2--2----

E-----------------------------------------------------------------------

                   A.H.                                                

 

         RIFF 5                                                RIFF 6               

E------|-----------------------------------------------------|----------

B------|-----------------------------------------------------|----------

G------|-----------------------------------------------------|----------

D---5--|-----------6-----------7-----------6-----------7-----|----------

A------|--4--4--4--4--4--4--4--4--4--4--4--4--4--4--4--4-----|--2--2----

E------|-----------------------------------------------------|----------

   A.H.                                                               

 

                                                                        

E----------------------------------------------|

B----------------------------------------------|

G----------------------------------------------|

D------4-----------5-----------4-----------5---|

A---2--2--2--2--2--2--2--2--2--2--2--2--2--2---|

E----------------------------------------------|

                                                                        

 

      Fill 1         Fill 2                                                         

E---|--------------|--------------|

B---|--------------|--------------|

G---|--------------|--------------|

D---|--6-----2--4--|--4-----2--4--|

A---|--4-----0--2--|--2-----0--2--|

E---|--------------|--------------|

                                                                        

 

Solo(Rhythm Guit.):

 

E------------------|-----------------|

B------------------|-----------------|

G------------------|-----------------|

D---2-----6-----4--|--6-----2-----4--|

A---0-----4-----2--|--4-----0-----2--|

E------------------|-----------------|

                                                                        

 

End:

                                                                        

E-----------------------------------------------------|-----------------

B-----------------------------------------------------|-----------------

G------4--6-----------------4-----8-----6--------6--6-|-----------------

D---2--4--6--6--7-----2-----4-----8-----6--------6--6\|-----------------

A---2--2--4--6--7-----2-----2-----6-----4--------4--4-|-----------------

E---0--------4--5-----0-------------------------------|-----------------

 

 

 

Song Structure:

 

1)  Intro (x6)

2)  Riff 1 

3)  Riff 2 (x3)

4)  Riff 3 (x2, 2nd Time enters 2nd Guitar harmonized in 3rd tones) 

5)  Riff 2 (x2)

6)  Bridge

7)  Chorus (x2)

8)  Riff 4

9)  Riff 5 (x2)

10) Riff 6 (x2)

11) Riff 4 (x2)

12) Fill 1

13) Riff 5 

14) Fill 2

15) Riff 5

16) Repeat from 11 to 15

17) Solo (x3)

18) Riff 3 (x2, 2nd Time enters 2nd Guitar harmonized in 3rd tones) 

19) Bridge

20) Chorus (x3)

21) End

                                                                        

 

                                                                        

 

 

 

========================================================================

==                       TABLATURE EXPLANATION                        ==

========================================================================

 

----------                ----------                ----t---

----5h8--- Hammeron       ----(8)--- Ghost          ----6--- Tap

----------                ---------- Note           --------

----5p8--- Pulloff        ----------                --------

 

----------                ----------                -----p--

----5/8--- Slide Up       -----x---- Dead           -----7-- Pop

----------                ---------- Note           --s-----

----5\8--- Slide Down     ----------                --5----- Slap 

 

----------                ||------|| Repeat         --------

----5~~~-- Vibrato        ||*----*||                ---5^--- Bend

----------                ||*----*||                --------

----------                ||------||                --------

 

----------                ----------                --------

-4:------- Time           ----------                --------

-4:------- Signature      ----------                --------

----------                ----------                --------

 

Rhythm:

  w = whole note            W = dotted whole

  h = half note             H = dotted half

  q = quarter note          Q = dotted quarter

  e = eighth note           E = dotted eighth

  s = sixteenth note        S = dotted sixteenth

  t = 32nd note             T = dotted 32nd

  x = 64th note             X = dotted 64th

  ^ = triplet

 

========================================================================

==      Created with TABESTRY Tab Creation Software for Windows       ==

==               For more info email gse@ocsystems.com                ==

========================================================================