Make your own free website on Tripod.com
Drakkar : "Eridan Falls"

 

Introduction:

 

    e  s  s  s  s  s  s  s  s  s  s  e  e  e  s  s  s  s  s  s  s  s    

E-----------------------------------------------------------------------

B-----------------------------------------------------------------------

G-----------------------------------------------------------------------

D---7--------------------------------------3----------------------------

A---5--5--5--5--5--5--5--5--5--5--5--5--0--1--1--1--1--1--1--1--1--1----

E-----------------------------------------------------------------------

                                                                        

 

    s  s  q  e  s  s  s  s  s  s  s  s  s  s  q     q  e   q   e   q    

E------------------------------------------------|----------------------

B------------------------------------------------|----------------------

G------------------------------------------------|----------------------

D------------5-----------------------------------|--9--10--12--10--9----

A---1--1--1--3--3--3--3--3--3--3--3--3--3--3--3--|--7--8---10--8---7----

E------------------------------------------------|----------------------

                                                    1st time            

 

       e   q  h                 w  w  w  h  h  w  w  w   h  h                        

E---|------------|  End      |-------------------------|-------|

B---|------------|  of       |-------------------------|-------|

G---|------------|  intro    |-------------------------|-5-----|

D---|--10--9--5--|           |--7--3--5--3--5--7--3--5-|-3--5--|

A---|--8---7--3--|           |--5--1--3--1--3--5--1--3-|----3--|

E---|------------|           |-------------------------|-------|

       2nd time               [Riff 1]                 [Fill 2]

 

      

    s  s  s  s  s  s  s  s  e     w  w  e  s  s  s  s  s  s  s  s  s    

E------------------------------|-----r---------------------------------

B------------------------------|-----e---------------------------------

G------------------------------|-----s---------------------------------

D---7--5--3--------------------|--5--t--3------------------------------

A------------7--5--3--3--5--3--|--5-----1--1--1--1--1--1--1--1--1--1---

E------------------------------|--3------------------------------------

   [Fill 1]                     [Riff 2]

                                                            

    s  s  s  s  s  e  s  s  s  s  s  s  s  s  s  s  s  s  s  s      

E---------------------------------------------------------------|

B---------------------------------------------------------------|

G---------------------------------------------------------------|

D------------------5--------------------------------------------|

A---1--1--1--1--1--3--3--3--3--3--3--3--3--3--3--3--3--3--3--3--|

E---------------------------------------------------------------|

                                                                  

 

  w  w  w  s  s  s  s  s  s  s  s  s  s  s  s  q  w  w  w  s  s  s  s    

E--------------------------------------------------------------------

B--------------------------------------------------------------------

G----2--3--------------------------------------------2--3-------------

D-3--2--3--3--3--3--3--2--2--2--2--0--0--0--0--2--3--2--3--3--3--3--3-

A-3--0--1-----------------------------------------3--0--1-------------

E-1-----------------------------------------------1-------------------

  [Riff 3]                                                                      

 

    s  s  s  s  s  s  s  s  q  e  s  s  s  s  s  s  s  s  s  s  s  s    

E-----------------------------------------------------------------------

B-----------------------------------------------------------------------

G-----------------------------------------------------------------------

D---2--2--2--2--3--3--3--3--5-------------------------------------------

A------------------------------3----------------------------------------

E------------------------------1--1--1--1--1--1--1--1--1--1--1--1--1----

                                                                        

 

    s  s  e  s  s  s  s  s  s  s  s  s  s  s  s  s  s  e  s  s  s  s    

E-----------------------------------------------------------------------

B-----------------------------------------------------------------------

G-----------------------------------------------------------------------

D---------2--------------------------------------------3----------------

A---------0--0--0--0--0--0--0--0--0--0--0--0--0--0--0--1--1--1--1--1----

E---1--1----------------------------------------------------------------

                                                                        

 

    s  s  s  s  s  s  s  s  s  s        s  s  s  s  s  s  s  s  s  s    

E------------------------------------|----------------------------------

B------------------------------------|----------------------------------

G---------------------------------5--|----------------------------------

D---------------------------------5--|--0--0--3--3--5--5--7--7--5--5----

A---1--1--1--1--1--1--1--1--1--1--3--|----------------------------------

E------------------------------------|----------------------------------

                                        [Riff 4]                                 

 

    s  s  s  s  e  s  s  s  s  s  s  s  s  s  s  s  s  s  s  e  s  s    

E-----------------------------------------------------------------------

B-----------------------------------------------------------------------

G-----------------------------------------------------------------------

D---3--3--5--5--7--------2--2--3--3--5--5--3--3--2--2--3--3--5--3--3----

A------------------3--3-------------------------------------------------

E-----------------------------------------------------------------------

                                                                        

 

    s  s  s  s  s  s  s  s  s  s  s  s  e  e  q  e  q                   

E------------------------------------------------------|

B------------------------------------------6--5--3-----|

G---2--2--3--3--5--5--3--3--2--2--3--3--5-----------5--|

D------------------------------------------------------|

A------------------------------------------------------|

E------------------------------------------------------|

                                                                        

 

 

E-----------------------------------------------------------------------

B-----------------------------------------------------------------------

G-----------------------------------------------------------------------

D-----------------------------------------------------------------------

A-----------------------------------------------------------------------

E---0-----0--0--0--0-----0--0--0-----0--0-----0--0--0--0-----0--0--0----

                                                                        

   [Riff 5]

                                                                        

E------------------|----------------------------------------------------

B------------------|----------------------------------------------------

G------------------|----------------------------------------------------

D------------------|----------------------------------------------------

A------------------|----------------------------------------------------

E---0-----0--0--0--|--0-----0--0--0--0-----0--0--0-----0--0-----2--3----

                     [Riff 6]                                                   

                     

E---------------------------------------------------------------|

B---------------------------------------------------------------|

G---------------------------------------------------------------|

D---------------------------------------------------------------|

A---------2--3--2-----------------------------------------------|

E---2--0-----------3-----0-----0--0--0--0-----0--0--0-----0--0--|

                                                                        

 

E------------------------|--------------|

B------------------------|--------------|

G------------------------|--------------|

D--------------------A.H.|--------------|

A---5--------3--------2--|--------3~~~--|

E------0--0-----0--0-----|--1~~~--------|

  1st time                 2nd time                                            

 

 

Arpeggio

 

    e  e  e  w  e  e  e  h  e  e  e  h                                  

E---------------------------------------|        |-----------------------|

B------------0-----------0-----------0--|  end   |-----------------------|

G---------0-----------0-----------0-----|  of    |--2--5--2-----2--------|

D------2-----------2-----------4--------|  arp.  |--2--5--2-----2--3--5--|

A---------------3-----------5-----------|        |--0--3--0-----0--3--5--|

E---0-----------------------------------|        |-----------------1--3--|

                                                   [Riff 7]

 

 

Ending

 

E---------------------------|

B---------------------------|

G---9--12--9-----9--7--9----|

D---9--12--9-----9--7--9----|

A---7--10--7-----7--5--7----|

E---------------------------|

 

 

Song' structure

 

1) Intro

 

2) Riff 1

 

3) Fill 2

 

4) Verse 

a) Riff 1 (16th played)

b) Fill 1

c) Riff 1 (16th played)

d) Fill 2

 

5) Riff 2 (x2 times)

 

6) Riff 3 (Chorus)

 

7) Riff 4

 

8) Verse 

 

9) Riff 2 (x2)

 

10)Riff 3 (Chorus)

 

11)Riff 5 (x4)

 

12)Riff 6 (x2)

 

13)Arpeggio (x10)

 

14)Riff 7 (x4)

 

15)Solo (Rhythm Guitar: Riff 1+ Fill 2)

 

16)Riff 2 (x2)

 

17)Riff 3 (Chorus)

 

18)Riff 3, 1 step higher (Final Chorus)

 

19)Ending

 

========================================================================

==                       TABLATURE EXPLANATION                        ==

========================================================================

 

----------                ----------                ----t---

----5h8--- Hammeron       ----(8)--- Ghost          ----6--- Tap

----------                ---------- Note           --------

----5p8--- Pulloff        ----------                --------

 

----------                ----------                -----p--

----5/8--- Slide Up       -----x---- Dead           -----7-- Pop

----------                ---------- Note           --s-----

----5\8--- Slide Down     ----------                --5----- Slap 

 

----------                ||------|| Repeat         --------

----5~~~-- Vibrato        ||*----*||                ---5^--- Bend

----------                ||*----*||                --------

----------                ||------||                --------

 

----------                ----------                --------

-4:------- Time           ----------                --------

-4:------- Signature      ----------                --------

----------                ----------                --------

 

Rhythm:

  w = whole note            W = dotted whole

  h = half note             H = dotted half

  q = quarter note          Q = dotted quarter

  e = eighth note           E = dotted eighth

  s = sixteenth note        S = dotted sixteenth

  t = 32nd note             T = dotted 32nd

  x = 64th note             X = dotted 64th

  ^ = triplet

 

========================================================================

==      Created with TABESTRY Tab Creation Software for Windows       ==

==               For more info email gse@ocsystems.com                ==

========================================================================