Make your own free website on Tripod.com
Drakkar : "Dragonship"

 

Riff 1:

 

    e  e  e  e  e  e   e  e  e   e  e  e   e  e  q  e  e  e   e  e      

E-----------------------------------------------------------------------

B-----------------------------------------------------------------------

G-----------------------------------------------------------------------

D-----------------------------------------------------------------------

A---------9--------10--------12--------10--------9--------10-----10-----

E---0--0-----0--0------0--0------0--0------0--0-----8--8------8---------

                                                 AH                   

 

    e  e  q  e  e  e  e q     e  e  e  e  e  e   e  e  e   e  e  e      

E--------------------------|--------------------------------------------

B--------------------------|--------------------------------------------

G--------------------------|--------------------------------------------

D---------------------7p5--|--------------------------------------------

A---9--7--5--5--5--5--5-5--|--------9--------10--------12--------10-----

E--------------------------|--0--0-----0--0------0--0------0--0---------

                                                                        

 

    e  e  q  e  e  e   e  e   e  e  w                                   

E-----------------------------------------------------------------------

B-----------------------------------------------------------------------

G-----------------------------------------------------------------------

D-----------------------------7--9--7-----------------------------------

A---------9--------10-----10--------------------------------------------

E---0--0-----8--8------8------------------------------------------------

          AH                                                          

 

 

Verse:

 

    e  e  e  e  e  e  e  e  e  e  e  e  e  e  e  e  e  e  e  e  e  e    

E-----------------------------------------------------------------------

B-----------------------------------------------------------------------

G-----------------------------------------------------------------------

D-----------------------------------------------------------------------

A---------------------------------------------------------5-----5-------

E---0--0--0--0--0--0--0--0--0--0--0--0--0--0--0--0--0--0--3--0--3--0----

                                                                        

 

    e  e  e  e  e  e  e  e  e  q     e  e  e  e  e  e  e  e  e  e  e    

E---------------------------------|-------------------------------------

B---------------------------------|-------------------------------------

G---------------------------------|-------------------------------------

D------------------------------5--|-------------------------------------

A---------7--------5--------7--5--|-------------------------------------

E---0--0--5--0--0--3--0--0--5--3--|--3--3--3--3--3--3--3--3--3--3--3----

                                                                        

 

    e  e  e  q  e  e  e  e  e  e  q  e  e  e  e  e     e  q      e       

E---------------------------------------------------|--------|----------

B---------------------------------------------------|--------|----------

G------------7--------------------2-----------------|--------|----------

D------------7--------------------2-----------------|--5--2--|----------

A------------5--5--5--5--5--5--5--0--0--0--0--0--0--|--5--2--|---0------

E---3--3--3-----------------------------------------|--3--0--|----------

                                                     1st time  2nd time  

 

 

Bridge:

 

    q  e  e  e  e  e  e  q  e  e  e  e e  e  q  e  e  e  e e e  q  e    

E-----------------------------------------------------------------------

B-----------------------------------------------------------------------

G------------------------7----------------------------------------------

D---5-----------5--------5--5--5--5--5p4-----------7-----5h7p5----------

A---3--3--3--3-----3--0-------------------7--5--5-----5---------5--5----

E-----------------------------------------------------------------------

                                                                        

 

    e  e  e e e     q  e  e  e  e  e  e  q  e  e  e  h    q  e  e  e    

E----------------|------------------------------------------------------

B----------------|------------------------------------------------------

G----------------|-----------------------7--7--7--7--7----2-------------

D---7-----5h7p5--|--5-----------5--------5--5--5--5--5\x--2-------------

A------5---------|--3--3--3--3-----3--0-------------------0--0--0--0----

E----------------|------------------------------------------------------

                                                                        

 

    e  e  e  w  w  w                                                    

E---------------r--r--| 

B---------------e--e--|

G------------4--s--s--|

D------------4--t--t--|

A---0--0--0--2--------|

E---------------------|

            let ring

 

Chorus:

                                                                        

E-----------------------------------------------------------------------

B-----------------------------------------------------------------------

G---9--7--5-----7-------------------------------------------------------

D---9--7--5-----7-------------------------------------------------------

A---7--5--3-----5--5--5--5-----5--5--5-----5--5--5-----5--5--5-----5----

E-----------------------------------------------------------------------

                                                                        

 

                                                                        

E-----------------------------------------------------------------------

B-----------------------------------------------------------------------

G-----------------------------------------------------------------------

D---------------------------------4-------------------------------------

A---5--5-----5--5--5-----5--5--0--2--2--2--2-----2--2--2-----2--2--2----

E-----------------------------------------------------------------------

                                                                        

 

                                                                        

E-----------------------------------------------------------------------

B-----------------------------------------------------------------------

G-----------------------------------------------------------------------

D------------------------------------------4-5--------------5--4--2-----

A------2--2--2-----2--2--2-----2--2--2--0--2/3--3--3--3--3--------------

E-----------------------------------------------------------------------

                                                                        

 

                                                                        

E---------------------------|-----------|-------------------------------

B---------------------------|-----------|-------------------------------

G---7-----------------------|--9--7--5--|-------------------------------

D---7--------------7--5--4--|--9--7--5--|-------------------------------

A---5--5--5--5--5-----------|--7--5--3--|-------------------------------

E---------------------------|-----------|-------------------------------

                        A.H.                                           

 

 

Break 1:                                                                    

 

E-----------------------------------------------------------------------

B-----------------------------------------------------------------------

G-----------------------------------------------------------------------

D-----------------------------------------------------------------------

A---------------10--9--10-----------------7--9--7--5--------------------

E---0--0--0--0----------------0--0--0--0-----------------0--0--0--0-----

                       A. H.                                            

 

                                                                        

E-------------------------------|

B-------------------------------|

G-------------------------------|

D--------------------10-----12--|

A---10--9--10--------10-----12--|

E-----------------0--8---0--10--|

           A.H.                                                        

 

Break 2:

 

E--------------------------------|

B--------------------------------|

G---9----------------------------|

D---9----------------------------|

A---7--9--10--9--9-----9--10--9--|

E----------------7---------------|

                                                                        

 

Rhythm guitar under solos plays E, D, B, C, D

 

 

 

========================================================================

==                       TABLATURE EXPLANATION                        ==

========================================================================

 

----------                ----------                ----t---

----5h8--- Hammeron       ----(8)--- Ghost          ----6--- Tap

----------                ---------- Note           --------

----5p8--- Pulloff        ----------                --------

 

----------                ----------                -----p--

----5/8--- Slide Up       -----x---- Dead           -----7-- Pop

----------                ---------- Note           --s-----

----5\8--- Slide Down     ----------                --5----- Slap 

 

----------                ||------|| Repeat         --------

----5~~~-- Vibrato        ||*----*||                ---5^--- Bend

----------                ||*----*||                --------

----------                ||------||                --------

 

----------                ----------  Picked        --------

-4:------- Time           ----9-----  Harmonic      --------

-4:------- Signature      ----------                --------

----------                ----------                --------

                              AH

 

Rhythm:

  w = whole note            W = dotted whole

  h = half note             H = dotted half

  q = quarter note          Q = dotted quarter

  e = eighth note           E = dotted eighth

  s = sixteenth note        S = dotted sixteenth

  t = 32nd note             T = dotted 32nd

  x = 64th note             X = dotted 64th

  ^ = triplet

 

========================================================================

==      Created with TABESTRY Tab Creation Software for Windows       ==

==               For more info email gse@ocsystems.com                ==

========================================================================